Tanalahy Ny Foko (Mahaleo)

Hiran'i Mahaleo rehetra: Mahaleo
Capo: 2
Ny C dia C C/G C ny tsara hitendrana
azy (C/G: 3x2010)

Fampidirana: C (tab 1)

Tonony 1
  C          G   
Izay mena valala 
C              F
 Izay tiana malala 
 F                   C   C-G/B-Am7
Nefa ianao raha te-hiala 
G               C   
 Dia aza misalasala 

Tonony 2
 C          G  
Hatrizay ianao
C               F
 No tompon’ny safidy 
F                 C  C-G/B-Am7
Izay tianao no natao 
G                 C   tab 2
 Satria ianao no didy          

     Fiverenana (2x)
      F                C   C-G/B-Am7
     Nefa tanalahy ny foko 
     G             C
      Mahay hiova loko 

Tetezana: C (tab 1)

Tonony 3
 C              G
Raha ny tany malemy 
C                  F
 Azo hanorenam-pangady 
 F               C   C-G/B-Am7
Feno eny rehetra eny 
G                     C   
 F’izaho no tsy te-hitady 

Tonony 4
 C                 G
Nefa raha tianao izany 
C                 F
 Dia sahiko ny milaza 
 F                C       C-G/B-Am7
F’izao dia izao ihany aho 
G             C   tab 2
 Hahita ny sahaza

     Fiverenana (2x)
      F                  C   C-G/B-Am7
     Satria tanalahy ny foko 
     G             C
      Mahay hiova loko 

Tetezana: C (tab 1)
Tonony 5
  C                 G         
Tsy ny masoandro matory 
C                 F
 No hahafoana ny taratra 
    F                   C   C-G/B-Am7
Ny volana koa anie boribory 
G                 C  
 Mirehitra fatratra 

Tonony 6
 C              G
Ianao no te-handeha
C                F
 Soava dia, mahereza 
 F                 C C-G/B-Am7
Ny tia ahy be dia be 
G              C   tab 2
 Be ny mitady seza

     Fiverenana (2x)
      F                  C   C-G/B-Am7
     Satria tanalahy ny foko 
     G             C
      Mahay hiova loko 

Tetezana: C (tab 1)         

Tonony 7
 C             G
Nefa aza manantena 
C                F
 F’izaho no hitomany 
 F                  C   C-G/B-Am7
Na hiantso hoe miverena 
G           C   
 Nofinofy izany 

Tonony 8
 C            G
Fa fanajana anao 
C                F
 No nampipetraka ahy 
 F                     C  C-G/B-Am7
Ianao indray no te-handao 
    G              C   tab 2
Oadray, soa ihany lahy

     Fiverenana (2x)
       F                    C   C-G/B-Am7
     Tretrika, tretrika ny foko 
     G             C
      Hahay hiova loko

Tab 1        
e|-----------------------------------------
b|-3===>5-5---5-----4-3-1-----1------1-----
g|-3===>5--5---5--------------0-----0------
D|-3===>5---5---5---4-3---2-----2----------
A|----------------------3-----3------3-
E|------------------------------3-----3----

Tab 2
e|--5--4--3--------------------------------
b|-----------------------------------------
g|--5--4--3--------------------------------
D|-----------------------------------------
A|-----------------------------------------
E|-----------------------------------------
    C--G/B-Am7..G
e|--------------3--------------------------
b|--1--3---1----0---------------------------
g|-----------------------------------------
D|-----------------------------------------
A|--3--2---0----2--------------------------
E|--------------3--------------------------
Advertisements

Leave a Reply

Fill in your details below or click an icon to log in:

WordPress.com Logo

You are commenting using your WordPress.com account. Log Out / Change )

Twitter picture

You are commenting using your Twitter account. Log Out / Change )

Facebook photo

You are commenting using your Facebook account. Log Out / Change )

Google+ photo

You are commenting using your Google+ account. Log Out / Change )

Connecting to %s