Ianao (Mahaleo)

Hiran'i Mahaleo rehetra: Mahaleo
Capo: 4
Dm/F: xx323x na 1x323x
F:    1x3211

Fampidirana
C Dm/F-F
G C

Tonony (2x)
C                  Dm/F   F    
Ianao no nofidiko re rahavana
G       C
 Omeko fitiavana
C                     Dm/F   F         
 Jereo ka mba raiso ireto tanana
 G                           C
Mitoloko izy ireo f’aza lavina 

     Fiverenana
     F                C
      Atolotro anao, ho anao irery 
      G                  C
     Hataka ihany anefa fa tsy an-tery 
     F                       C
     Aza atositosikao raha tsy anjara 
     G                            C
     Avalony fotsiny iny fa tantara 

Tonony
     Fiverenana
-------------------------------------------
Tablature
Mety misy miova kely amin'io ny
fitendry fa amin'ny ankapobehiny 
dia manaraka an'io ny fitendry azy
Fampidirana
   C                         Dm/F--F
e|-----3---1-0---1---0-------------------
b|-1-1---------3---------3-1-----3---1---
g|-----------------------------2-------2-
D|-------2---------2---2-----3-----3---3-
A|-3---3---3-3-3-3---3---3-3-------------
E|---------------------------------------
             G                       C
e|------------------- 1-0--------------
b|------------3-3-1-3-0-0-3---0-1-3---1
g|------------0-0-0-0-----0---0-0-0---0
D|-3-2-0-2-3---------------------------
A|----------------------0-2-----------3
E|-----------3----3---3-------3---3-3--

e|-------
b|-------
g|-------
D|-------
A|---0-2-
E|-3-----

Tonony (2x)
   C                   Dm/F   F    
   Ianao no  nofidiko re rahavana
e|-1--3---1---0---1-0-----------------
b|--------------3---1-------3-1-------
g|------------------------2-----2-----
D|--2-------2------2---3----3-3-3-----
A|-3--3---3---3-3-3-3-----------------
E|------------------------------------
             G                C
              Ome__ko        fiti_avana           
e|--------------------3-1-0-------0----
b|--------------3-1-3-------3-1-3---3-1
g|------------0------------------------
D|-3-2-0-2-3---------------------------
A|----------------------------3-3-3---3
E|-----------3--3-3-3------------------
         C                      Dm/F   F         
          Jere_o  ka mba rai_so ireto tanana
e|-----------3-1---0------1---0-------------
b|---------------------3------1--------3-1--
g|----------------------------------2------2
D|---------2-----2----------2-----3----3-3-3
A|---0-2-3---3-3---3---3--3---3-------------
E|-3--------------------------------------
               G                     C
              Mitolo__ko izy ire_o f’aza lavina
e|-------------------------1---0---------------
b|-----------------3---1-3-------3---0-1--3---1
g|---------------------------------0----------0
D|-3-2-0-2-3-----0---0---0-------0--------0----
A|--------------------------------------------3
E|-------------3---3---3---3---3-----3-3----3--
              Miverina ny Tonony
e|-------
b|-------
g|-------
D|-------
A|---0-2-
E|-3-----
Fiverenana
        F                 C
         Atolotro ana_o, ho anao irery
e|---------1----1-1-3-1-------0----0-----0----
b|---------1----1-1-1-1---1--------1---1---3-1
g|-----------2--------------------------------
D|--0-2--3------------------2-----------------
A|-3----------------------3---3----3---3-3-3--
E|------3-------3-3-3-3----------3------------
      G                  C
     Hataka ihany anefa fa tsy an-te__ry
e|----------------1-0------------------0-----
b|----0---3-1-3---0---3--1---------1-3-1-----
g|------0-0---0----------0-----0---0---------
D|------------0------------------------------
A|------------------0-2--3---------3-3-3-----
E|----3---3-3---- 3--------------------------
        F                       C
        Aza atositosikao raha tsy anja__ra
e|------------1---1-1-3---1----------0---0---0-0--
b|------------1---1-1-1---1-----1--------1-1---3-1
g|--------------2---------------------------------
D|--0-2---3-----------------------2---------------
A|-3----------------------------3----3---3-3-3-3--
E|------3-----3---3-3-3---3------------3----------
      G                            C
      Avalony fotsiny iny fa tanta__ra
e|----------------1---0---------------------------
b|--------3-1--3--------3--0--1--3---1------------
g|----0---0----0-----------0--0--0---0------------
D|------0------0----------------------------------
A|--------------------0-2------------3------------
E|----3---3-3-----3--------3-----3-3--------------
Advertisements

Leave a Reply

Fill in your details below or click an icon to log in:

WordPress.com Logo

You are commenting using your WordPress.com account. Log Out / Change )

Twitter picture

You are commenting using your Twitter account. Log Out / Change )

Facebook photo

You are commenting using your Facebook account. Log Out / Change )

Google+ photo

You are commenting using your Google+ account. Log Out / Change )

Connecting to %s