Sombim-panampiana (Bessa)

Hiran'i Bessa sy Lola rehetra: Bessa sy Lola
A7':  x05685 na      x02023  A7: 575655
Am7': x05585 Am7:    5x5555x na  x02010   
Bb7:  x13131 Bbmaj7: x13131  na  687766
C7:   x35353 C#dim7: x45353  Cm: x35543
D7:   x57565 Dm7:    x57565
E7:   x79797
Fmaj7:x8(10)9(10)8
Gm7:  3x3333
s: slide (migorisa)
h: hammer (kapohina)
p: pulloff (esorina)
^: bend (atosika miakatra)

Fampidirana/Tab 1
   F             C       C7
e|-1-------1-0----------------
b|-------1---1-3-------1------
g|-----2-------------0---3---3
D|-----------3-----2-------2--
A|---------------3-------3---3
E|-1--------------------------

   Fmaj7        C       C7
e|--------0--------------
b|------1---3-1-------1-1
g|--2-3-------2-----0---3
D|------------3---2------
A|--------------3-------3
E|-1---------------------

Tonony 1
Fmaj7            E7  A7'
 Fa toy ny voninkazo 
D7               Gm7
 Maniry an-tany hay 
C7    C#dim7    Dm7     
 Mosaren-dranon’ando 
  Gm7                Bb7 C7
Mbola tsy soa dia mala__zo 

Tonony 2
Fmaj7        E7 A7'
Tahak’izany koa 
D7                   Gm7
 Ny fo tsy manana fitia 
C7   C#dim7     Dm7
 Fa velombelom-poana 
  Gm7    C7      Fmaj7
Tsy misy aina tokoa 

     Fiverenana
     Dm7          A7   Cm        Fmaj7   Bbmaj7
      Mba ampandefero ty hambom-po ratsinao 
      Bbmaj7  C7     Am7 Dm7   Gm7    C7        Am7 D7
     Hanjary fo misaria_ka,  'lay fitiavan-tenanao 
       Gm7      C7      Am7' D7
     Ario 'zay kakay masia__ka 
         Gm7   C7        Fmaj7 
     Fitiavana ahasolo ireo 

Tetezana/Solo
  Fmaj7                 E7        A7
e|--------------------|-----------------
b|-------11-9s10------|-----10-10-------
g|----10--------10----|-11-------12-12--
D|-10--------------10-|-----------------
A|--------------------|-----------------
E|--------------------|-----------------
  D7                   Gm7                 
e|--8-10-10s11-8-------10h11p10-12-10--------------
b|---------------10-------------------10-----------
g|------------------11-------------------10-8h9-7-7
D|-------------------------------------------------
A|-------------------------------------------------
E|-------------------------------------------------
   C7     C#dim7                    Dm7
e|----------------------------------------
b|---8-10-10s11-----11-9h10p9h10----------
g|-------------------------------10----10-
D|--------------11------------------12----
A|----------------------------------------
E|----------------------------------------
                Gm7                           C7  
e|---------8-10s12-13-10---------13-^15-13----13
b|------10-----------------13-15----------15---
g|-9-10----------------------------------------
D|---------------------------------------------
A|---------------------------------------------
E|---------------------------------------------

Fampidirana/Tab 1

Tonony 3
Fmaj7              E7  A7'
 Raha toa ianao mijaly 
D7               Gm7
 Tsy ahitam-pifaliana 
C7           C#dim7 Dm7
 Ny fiainam-pa___horiana 
Gm7                 Bbmaj7 C7 
Inty aho mba hamalifa_____ly 

Tonony 4
Fmaj7              E7 A7'    
 Henoy 'zao hira izao 
D7           Gm7         
 Fampaherezako anao 
C7           C#dim7  Dm7
 Ahidiro am-po     atao 
 Gm7         C7        Fmaj7
Sombim-panampiana ho anao
     Fiverenana
     Dm7          A7   Cm        Fmaj7   Bbmaj7
      Mba ampandefero ty hambom-po ratsinao 
      Bbmaj7  C7     Am7 Dm7   Gm7    C7        Am7 D7
     Hanjary fo misaria_ka,  'lay fitiavan-tenanao 
       Gm7      C7      Am7' D7
     Ario 'zay kakay masia__ka 
         Gm7   C7        Fmaj7 
     Fitiavana ahasolo ireo
Advertisements

Leave a Reply

Fill in your details below or click an icon to log in:

WordPress.com Logo

You are commenting using your WordPress.com account. Log Out / Change )

Twitter picture

You are commenting using your Twitter account. Log Out / Change )

Facebook photo

You are commenting using your Facebook account. Log Out / Change )

Google+ photo

You are commenting using your Google+ account. Log Out / Change )

Connecting to %s