Ny Fitiavantsika – Tendry Gasy (Randratelo)

Hiran'i Randratelo rehetra: Randratelo
Afaka mampiasa tendry tsotra
Tendry Gasy (CGDgbe)
Capo: 5
Am: x22210  A :  x2222x
C:  002010
D:  2x0232  
Em: 4x2000
G:  x0000x  G/B: x4003x
p:  pulloff (esorina)

Fampidirana
   C       G     C        
e|------0--3---|------0--
b|---1-3-3--3--|---1-3-3-
g|--0--------4-|--0------
D|-------5-----|-------5-
G|-------------|---------
C|-0-----------|-0-------

   C       G     Am      D
e|------0--3---|----------
b|---1-3-3--3--|-1p0-0-1-3
g|--0--------4-|-2--2----2
D|-------5-----|----------
G|-------------|-2--------
C|-0-----------|---------0

Tonony 1
G              Em
 Raha misy ny tiako
       D            G
Dia ianao ilay tokana
C                G/B 
 Masoandroko antoandro
 Am           D
Volako ny alina

Tonony 2
G          Em
 Fitia voarary
   D           G
Ny ahy sy ny anao
 C               G/B
Zaza latsaka an-kady aho 
 D           G
Raha hilaozanao

     Fiverenana
     C           G/B
      Fa fo nifanaiky
              D              G
     Ny ho doria ny antsika roa
     C             G/B
      Hoe aina no fetra
           A              D
     Sanatria ny hisara-droa
    
          C         G/B
      Fa tendrin'ny avo
            D          G
     Tsy ho_azo sakanana
     Em            G/B
      Ny fitiavantsika
              Am           G
     Toy ny avia sy havanana

Tetezana: C G C 
          C G Am D

Tonony 3
G              Em
 Tsy manan-tsahala
      D           G
Sanatria tsy kilalao
C          G/B
 Fitia voasedra
        Am             D       
Niharitra_ny izao sy izao

Tonony 4
G            Em
 Ny feony manako
       D           G
Reko anaty ao lalina
C             G   
 Tena latsam-paka
   Am           G
Fitia tena marina

     Fiverenana
     C           G/B
      Fa fo nifanaiky
              D              G
     Ny ho doria ny antsika roa
     C             G/B
      Hoe aina no fetra
           A              D
     Sanatria ny hisara-droa
 
     C              G/B
      Fa tendrin'ny avo
            D          G
     Tsy ho_azo sakanana
     Em            G/B
      Ny fitiavantsika
             Am         G
    Toy ny avia sy havanana

Tetezana/Solo
   C        G        C       G    
e|---3p2-0----|------------------3
b|--------3-0-|--3--1p0--0-1-3-3--
g|--0---------|-0-------2-----0---
D|--------0---|-------------------
G|----------0-|--------------0----
C|-0----------------0-------------

   C        G       A      D
e|---3p2-0----|--------0-3-2------
b|--------3-0-|--0--2-3----3------
g|--0---------|-0---2-------------
D|--------0---|------------0------
G|----------0-|-----2-------------
C|-0------------------------------
 
   C      G     D      G
e|--8-7-5-----|-5----5-7----------
b|--8----8--0-|-7-7-8--8----------
g|--------7---|-0-----------------
D|-------0---|--------------------
G|--------0-|----------0----------
C|-0------------------------------

      Em  G/B   Am    G
e|-------0----|-------------------
b|------0-3---|-1-0-0-------------
g|-0---0---4--|-2--2--0-----------
D|--4-2-------|-------------------
G|--------4---|-2-----0------0----
C|--------------------------------
      Fiverenana

Famaranana
Em           G/B
 Ny fitiavantsika
         Am           G
Toy ny avia sy havanana
Am             G
  Ka hiaraka isika
  D        G
Hiara-dalana

Advertisements

Leave a Reply

Fill in your details below or click an icon to log in:

WordPress.com Logo

You are commenting using your WordPress.com account. Log Out /  Change )

Google+ photo

You are commenting using your Google+ account. Log Out /  Change )

Twitter picture

You are commenting using your Twitter account. Log Out /  Change )

Facebook photo

You are commenting using your Facebook account. Log Out /  Change )

w

Connecting to %s

This site uses Akismet to reduce spam. Learn how your comment data is processed.