Efa Ela (Dillie)

Hiran'i Dillie rehetra: Dillie
h: Hammer (kapohina aingana)
p: Pulloff (Esorina aingana)
s: Slide (Hagorisa)

Fampidirana
#1 - Bass fotsiny
   C          Am          G          F
e|----------|-----------|----------|-------
b|----------|-----------|----------|-------
g|--0-------------------|--0---0---|-------
D|------3s2-|--2--------|-0-0-3-0--|-------
A|-3-3-----3|-0-0--3s2-0|----------|-------
E|----------|-----------|----------|-1--3-1

#2 - Rythm (Glita #1) + Bass etsy ambony
   C          Am          G          F
e|-0--1-0---|-----5-----|-------7--|------
b|-1-1---3-1|----5-5----|---8-10-8-|---6--
g|----------|---5---5---|--7------7|--5---
D|----------|--7--------|-9--------|-7----
A|-3--------|-----------|----------|------
E|----------|-----------|----------|------

#3 - Solo (Glita #2) + Rythm (Glita #1) + Bass
                 C                 Am      
e|-----------------------|----------------
b|-----------------------|---12-14-12-----
g|------12-12-12h14-14-12|-14--------14-12
D|-12h14-----------------|----------------
            G                F
e|----------------------------------------
b|---13-15-^15-15-13----------------------
g|-14-------------------------------------
D|------------------14p12-12h14-----------
A|-----------------------------12-12-14-15

Tonony 1
 C                   Am
Ianao niteny no nandrasana
          G            F
Saingy ianao tsy nanambara
 C                   Am
Fa dia moana toy ny fasana
       G            F
Tsy niteny, tsy nitsara

     Tetezana
          Am                   G
     Tsy fantatro izay tena marina
      F                     C
     Ianao minia toa tsy miteny 
      Am                   G
     Ny saiko izay tia mandalina
      F                  G
     Lasalasa toa mirenireny

Riff
g|-0-2-0-------
D|------2-0----
A|---------3-0-
E|------------3
             Ka
     Fiverenana
        F                 Am             G         
     Lazao amin'izay, efa ela aho no afa-po (3x)
    
Fampidirana (#2 & #3): C Am G F

Tonony 2
C             Am
Efa diso tafahoatra
         G            F
Ny fahanginanao hatrizay
 C                 Am
Dia ny alahelo indray no hivoaka
    G                   F
Ka very saina, ho very fanahy

     Tetezana
     Am                G
     Aoka izay ny ankamantatra
     F                      C
     Aoka izay ny tsiambararoa
     Am                    G
     Efa ela aho no te ahafantatra
     F                   G
     Efa ela aho no afa-po

Riff
g|-0-2-0-------
D|------2-0----
A|---------3-0-
E|------------3
             Ka
     Fiverenana
        F                     Am          G 
     Lazao amin'izay, efa ela aho no afa-po (3x)
Advertisements

Leave a Reply

Fill in your details below or click an icon to log in:

WordPress.com Logo

You are commenting using your WordPress.com account. Log Out / Change )

Twitter picture

You are commenting using your Twitter account. Log Out / Change )

Facebook photo

You are commenting using your Facebook account. Log Out / Change )

Google+ photo

You are commenting using your Google+ account. Log Out / Change )

Connecting to %s