Lasa (Kiaka)

Hiran'i Kiaka rehetra: Kiaka
Bm:  x24430 (intro/tonony/famaranana)
Bm/A:x04432
D/F#:2x0232
Em:  xx200x (intro/tonony/famaranana)
F#:  244322
G:   xx543x (intro/tonony/famaranana)
G6:  320030

Fampidirina (2x) - Tab 1
Bm (2x)
Em G Bm

Tonony 1
 Bm              Bm
Lasa aho fa nandreraka anao 
       Em   G       Bm
Ireo toetrako hatrizay 
 Bm     Bm
Nomenao ahy daholo 
     Em      G    Bm
Ireo entako sisa tany 

     Tetezana
            G6            A
     Na ny sary izay mba tena tianao
     F#             Bm      Bm/A 
       Dia nanjary haizina sisa 
          G         D                  A
     Nefa inona moa  no nahatonga an’izany
     Tab 2

     Fiverenana (2x)
     D   Em  G     A         D
      Nahita   vaovao hono izy 
        E    G         A             D
     Nahita manja sy tsara indrindra e
         Em  G     A         D
      Nahita   vaovao hono izy 
         E    G        D/F#    Em      
     Ka lasa,  fa tandremo tsara 
          D         A
     Sao potraka ianao
     Tab 3

Famaranana 2x)
Bm (2x)
Em G Bm

Tab 1 (intro/tonony/famaranana)
   Bm              Bm           
e|---------0---------------0------
b|---2-------2---2---2-------2----
g|-----3-------3-------3-------3--
D|-------4---------------4-------4
A|-2---------------2--------------
E|--------------------------------

   Em      G       Bm           
e|-------------------------0------
b|---0-------3-------2-------2---2
g|-----0-------4-------3-------3--
D|-2-----2-5-----5-------4--------
A|-----------------2--------------
E|--------------------------------
Tab 2
                     D    Em   G
                       Nahita.....                     
e|-------------------
b|---3-2-------------
g|-------2-4-2-------
D|-------------2-4-2-
A|-0-------0-------0-
E|-------------------

Tab 3
                     D    Em   G
                       Nahita.....                     
e|--------------0-
b|-3-4-4-3-2-2-3--
g|-4-6-6-4-2-2----
D|----------------
A|-0---0---0-0----
E|----------------


					
Advertisements

Leave a Reply

Fill in your details below or click an icon to log in:

WordPress.com Logo

You are commenting using your WordPress.com account. Log Out / Change )

Twitter picture

You are commenting using your Twitter account. Log Out / Change )

Facebook photo

You are commenting using your Facebook account. Log Out / Change )

Google+ photo

You are commenting using your Google+ account. Log Out / Change )

Connecting to %s