Fy (Kiaka)

Hiran'i Kiaka rehetra: Kiaka
Capo: 1
Fampidirana
Am..G..Am.. (4x)

Tab 1 - Fmaj7 (4x)
e|-0-------0-------0
b|---1---1---1---1--
g|-----2-------2----
D|-3----------------
A|------------------
E|------------------
Tonony 1
Am                    Dm
Azonao eny aho, nony farany 
 E           Am      
Notiavinao, mamy ery 
 Am              Dm
Toa reko koa ny feonao 
  E                      Am
Miantsoantso hoe: Tiako be ianao 

     Fiverenana
          C         G
     Lasanao izany tenako 
      Dm    Am
     Sy notiavinao 
             C          G
     Ny tenako nanjary tia anao
      F   E
     Fy eie

Tab 1 - Fmaj 7 (4x)

Tonony 2
 Am              Dm
Topimaso no nahitanao ahy 
  E               Am
Tsiky foana no nasesiko anao 
Am                      Dm
Endratrendrana ianao mijery ahy 
 E                            Am  
Toa matahotra aho satria vehivavy ianao

     Fiverenana
          C         G
     Lasanao izany tenako 
      Dm    Am
     Sy notiavinao 
         C              G
     Ny tenako nanjary tia anao
      F   E
     Fy eie
Advertisements

Sabotsy Alina (Kiaka)

Hiran'i Kiaka rehetra: Kiaka
Bm:x24432
^: bend
s: slide (migorisa)
h: hammer (kapohina)
p: pulloff (esorina aingana)

Fampidirana
D  G  D  A (2x)
D  A  D  A ...A (2x)

Tonony 1
G        Bm     A            Em 
 Tsisy atao, ny andro harivariva 
G        Bm    A
 Tanora maro ety 
G        Bm      A        Em 
 Mifampotoana, hiara-mikorana 
G     Bm     A    
 Eny rehetra eny 

Tonony 2
Bm      G         D      A
 Hanala azy, week-end ny andro 
Em            Bm       A
 Kirimba sy boite de nuit 
Bm       G         D           A
 Hisotrosotro, ny sasany tena mamo 
Em     Bm        A  A4-A-G-A
 Faly sambatra ery 

     Fiverenana (2x)
      D    A-G   
     Revy e    
       G        D     G-A
     Miodina mirevy e  
      A            D   A-G
     Toa tsy mety vita 
          G       A
     Mihamamy hatrany 

Tonony 3
G          Bm   A               Em
 Ny revy atao, toa tsy mety ho lany 
G        Bm     A
 Fa vao maika miampy 
G    Bm       A         Em
 Beksa, sipa kely, whisky e 
G     Bm    A
 Falifaly ery 

Tonony 4
Bm          G     D            A
 Tsy hita akory, lasa ilay fotoana 
Em      Bm   A
 Tonga ny maraina 
Bm        G       D         A
 Malaina hody, hamonjy ny akany 
Em    Bm  A
 Okay    sur daholo ry leity ry leity e 
    
     Fiverenana (2x)
      D     A-G 
     Revy e 
       G        D     G-A
     Miodina mirevy e 
      A            D   A-G
     Toa tsy mety vita 
          G        A
     Mihamamy hatrany 
  
Solo
     D             G                  D            A
e|-------------------|--------------|-------------------
b|-------------------|--8p7---------|-------------------
g|-9s11-11-11s9-7----|-----9p7------|-------------------
D|---------------7h9-|--------9p7---|----7-9------------
A|-------------------|-----------10-|-7p9---7h9p7-------
E|-------------------|--------------|------------10-9---
              D           G           A                  
e|--------------------------|-----------------------
b|----------------10------8-|-7s8p7-----------------
g|-----7-9-7--9s11--11p9-7--|-------9-7-6-7-9-^9-7-9
D|--7s9---------------------|-----------------------
A|--------------------------|-----------------------
E|--------------------------|------------------------
   D     G           D         A
e|---------|---------------------------- 
b|-10-7--8-|-8-7-----10-7--8-7----------
g|-7--7--7-|-7-7-9-7-7--7--7-7-9--------
D|---------|----------------------------
A|---------|----------------------------
E|---------|----------------------------
           D     G           A
e|-----------------|--------------------- 
b|-8-7-----10-7--8-|-8-7-----------------
g|-7-7-9-7-7--7--7-|-7-7-9-7-6-7-9-^9-7-9
D|-----------------|---------------------
A|-----------------|---------------------
E|-----------------|---------------------

     Fiverenana (2x) 
      D    A-G  
     Revy e  
       G        D    G-A 
     Miodina mirevy e 
      A            D   A-G 
     Toa tsy mety vita  
          G       A 
     Mihamamy hatrany 

Tsy Sahy (Kiaka)

Hiran'i Kiaka rehetra: Kiaka
A4: x02230
D2: xx0230
S:  slide (migorisa)
^:  bend (atosika miakatra)
h:  hammer (kapohina)
p:  pulloff (esorina)

Fampidirana
D  G  A

Tonony 1
D                G 
 Asa raha fantatrao
              D
Ny ao am-poko ao
        D2         G
Fitiavana naniry anao

Tonony 2
D              G 
 Tsy sahiko lazaina
               D
Matahotra aho mantsy
 D2          G
Sao dia lavinao

     Tetezana
               Em 
     Tsy tsapanao
                         G
     Izaho efa raikim-pitia
              Em 
     Mijery anao
                   A
     Manjary mankahia
                   A4-A
     Tsy tantiko ery___

     Fiverenana
      D          C        G 
     Rahoviana_ihany mantsy 
           A
     Vao tsapanao
      D     C         G 
     Ny fitiavako mangina
        A
     Mikotrika ao

      D        C           G
     Ianao no nofiko hatrizay
          A 
     Hanasitrana 
       D      C        G
     'Ty foko efa lasanao
          Bm  
     Babonao

Tab 1
e|-----------------
b|-----------------
g|-----------------
D|-------2--0------
A|-2-4-5------4-2-0
E|-----------------

Tonony 3
    D             G
Tsy ampy angamba mantsy
              D
Ny hery ananako
     D2              G
Amborahako fitia aminao

Tonony 4
    D         G
Ny masonao mijery
              D
Toa mibanjina_ahy
   D2          G
Manainga ny fanahy

     Tetezana
              Em
     Ny endrikao
                     G 
     Izay mitsiky malefaka
                 Em
     Toa miantso ahy
                   A 
     Hinoako te-hiresaka
             A4 A
     Fa tsy sa_hy

     Fiverenana  
      D          C        G  
     Rahoviana_ihany mantsy  
           A  
     Vao tsapanao  
      D     C         G  
     Ny fitiavako mangina  
        A  
     Mikotrika ao 

      D        C           G  
     Ianao no nofiko hatrizay 
          A 
     Hanasitrana 
       D      C        G
     'Ty foko efa lasanao  
          Bm  
     Babonao

Solo
                 G  
e|----------------
b|----------------
g|----------------
D|----------------
A|-2-4-5-7--7-9-10
E|----------------
      D                   G
      ^  
e|--------------------------
b|-12s14--14-----------------
g|----------11-11-12-12-12---
D|------------------------12
A|--------------------------
E|--------------------------

                           D 
e|--------------------------
b|--------------------------
g|--------------------------
D|----12-10-9---------------
A|-10---------12-10-----12-9
E|------------------10------

                                       G                         
e|-------------------------------12-------------------
b|----------------------12-15-15----11s12-11s12s11--12
g|----------------11-14---------------------------12--
D|----------12-14-------------------------------------
A|-10s12-14-------------------------------------------
E|----------------------------------------------------
          Em
e|---12---15-12--12-15-12-----------------------------
b|-12--12------15--------15p12-15p12--12-15-12--------
g|----------------------------------14--------14p12---
D|----------------------------------------------------
A|----------------------------------------------------
E|----------------------------------------------------
                            G
e|----------------------------------------------------
b|----------------------------------------------------
g|-14p12--12-14p12------------------------------------
D|------14--------14-12-12h14-12----------------------
A|----------------------------------------------------
E|----------------------------------------------------
                    Em
                 ^
e|---12-15-16-17-19-12--14-15-12-------------------12-
b|-12-----------------------------15-14---14--15------
g|--------------------------------------14--14---14---
D|----------------------------------------------------
A|----------------------------------------------------
E|----------------------------------------------------
     A
e|---14--15---17-19-21--------------------------------
b|----------------------------------------------------
g|-14--14--14-----------------------------------------
D|----------------------------------------------------
A|----------------------------------------------------
E|----------------------------------------------------

     Fiverenana

Famaranana/Solo (2x)
      D    C        G         A
e|------14-12-----12-----12---14-12--
b|-----------15-12--15---------------
g|-12s14--14--14-------14---14-------
D|----------------------------------- 
A|-----------------------------------
E|-----------------------------------

   D    C         G          A        D
e|---14-15-14-12--15-14------12-14-14-12
b|--------------15-----15---------------
g|-14---------------------14------------
D|--------------------------------------
A|--------------------------------------
E|--------------------------------------

Ny Vola (Kiaka)

Hiran'i Kiaka rehetra: Kiaka
Bb: x13331
^:  bend (atosika miakatra ilay tady)
p: pull off (esorina)
Fampidirana
     C          F           Dm          G
     ^    ^     ^            ^
e|-------------------------------------
b|-3s5----5---5-6------6-5---6p5----6-8-8
g|-----5----7-----5--7-----7-----7--5-7-7
D|-------------------------------------
A|-------------------------------------
E|-------------------------------------
C  G (2x)

Tonony 1
 C                  G
Aiza e no ahitako anao
    C            G
Hatraiza ny herinao
   Bb                 F
Maninona aho no tena resinao
      Bb       F
Ka ianao no mibaiko ahy
      G
Hatrizao

Tonony 2
  C                          G
Hiezaka aho hanao 'zay azo atao
   C                   G
Hikaroka ny handreseko anao
      Bb            F
Toa adinoko ny hirahirako
      Bb            F
Ireo namana tsy tsaroako
        G
Noho ianao

     Fiverenana
         C               F
     Efa ela nitadiavako anao
          Em          Dm         
     Isan'andro, isan'andro izao
     C                  G
      Tsy mba mety hamelanao

      C                         F
     Mino aho fa tsy maintsy ho azoko ianao
              Em         Dm
     K'amin'izay andro 'zay
     C                 G        
      Dia ho resiko ianao

Tetezana
E                  Am  E       Am G
 Hanaraka_ahy hatrany ie e e e

Tonony 3
C                      G
Amin'izao dia azoko ianao
          C               G             
Nefa tsy_hitako izay mba vitanao
         Bb             F
Toa revirevy sy_haingitraingitra
       Bb        F           G
Nefa tsisy hasambarana..nomenao 

     Fiverenana
         C               F
     Efa ela nitadiavako anao
          Em          Dm 
     Isan'andro, isan'andro izao
     C                  G
      Tsy mba mety hamelanao

      C                         F
     Mino aho fa tsy maintsy ho azoko ianao
              Em         Dm
     K'amin'izay andro izay
     C                 G  E    
      Dia ho resiko iana__ao

Tetezana/Solo
Am Em (3x)
Am A
Dm C  G (2x)

     Fiverenana
         C               F
     Efa ela nitadiavako anao
          Em          Dm 
     Isan'andro, isan'andro izao
     C                  G
      Tsy mba mety hamelanao
     ----------------------------
     2x
      C                         F
     Mino aho fa tsy maintsy ho azoko ianao
              Em         Dm
     K'amin'izay andro izay
     C                 G  E 
      Dia ho resiko iana__ao

Famaranana
             Am
Ho resiko ianao
E                  Am     
 Amin'izay andro izay
E             Am
 Ho resiko ianao
E                  A
 Amin'izay andro izay

Ilay Mahantra (Kiaka)

Hiran'i Kiaka rehetra: Kiaka
Power chord daholo
A(5):  577xxx na x022xx
B(5):  x133xx
E(5):  022xxx
F#m(5):244xxx

Fampidirana
E B C#m G# 
A E B 

Tonony (2x)
E         B    F#m     A
 Andro maraina  vao mifoha 
E               B           F#m  A
 Andro iray vaovao eo am' fiainako 
E           B      F#m         A
 Ny omaly ihany ve  no_hosainiko 
E          B       F#m       A 
 Tsy misy hafa f'iray ihany koa 

     Tetezana
     C#m            B
      Ka inona ary no hataoko 
     A                F#m           B
      Hanao inona (2x) Mandritry ny andro
     C#m              B    
      Sakafo ihany no ato an-tsaiko 
     A                F#m              B  
      Hanao inona (2x) Mba hahazoako izany

     Fiverenana
        E          B      C#m      G# 
     Ho aiza e, ho aiza e, 'lay mahantra 
     A             E             B
      Toa tsy mba faly amin'ny fiainana 
        E          B      C#m      G#
     Ho aiza e, ho aiza e, 'lay mahantra 
     A         E     B
      Oh o o, ie e e, ka mba vonjeo re
A B C#m

Tonony/Tetezana/Fiverenana

Solo
C#m G#m 
A   F#m B
C#m G#m
F#m A B

Fiverenana

Lasa (Kiaka)

Hiran'i Kiaka rehetra: Kiaka
Bm:  x24430 (intro/tonony/famaranana)
Bm/A:x04432
D/F#:2x0232
Em:  xx200x (intro/tonony/famaranana)
F#:  244322
G:   xx543x (intro/tonony/famaranana)
G6:  320030

Fampidirina (2x) - Tab 1
Bm (2x)
Em G Bm

Tonony 1
 Bm              Bm
Lasa aho fa nandreraka anao 
       Em   G       Bm
Ireo toetrako hatrizay 
 Bm     Bm
Nomenao ahy daholo 
     Em      G    Bm
Ireo entako sisa tany 

     Tetezana
            G6            A
     Na ny sary izay mba tena tianao
     F#             Bm      Bm/A 
       Dia nanjary haizina sisa 
          G         D                  A
     Nefa inona moa  no nahatonga an’izany
     Tab 2

     Fiverenana (2x)
     D   E   G     A         D
      Nahita   vaovao hono izy 
        E    G         A             D
     Nahita manja sy tsara indrindra e
         E   G     A         D
      Nahita   vaovao hono izy 
         E    G        D/F#    Em      
     Ka lasa,  fa tandremo tsara 
          D         A
     Sao potraka ianao
     Tab 3

Famaranana 2x)
Bm (2x)
Em G Bm

Tab 1 (intro/tonony/famaranana)
   Bm              Bm           
e|---------0---------------0------
b|---2-------2---2---2-------2----
g|-----3-------3-------3-------3--
D|-------4---------------4-------4
A|-2---------------2--------------
E|--------------------------------

   Em      G       Bm           
e|-------------------------0------
b|---0-------3-------2-------2---2
g|-----0-------4-------3-------3--
D|-2-----2-5-----5-------4--------
A|-----------------2--------------
E|--------------------------------
Tab 2
                     D    Em   G
                       Nahita.....                     
e|-------------------
b|---3-2-------------
g|-------2-4-2-------
D|-------------2-4-2-
A|-0-------0-------0-
E|-------------------

Tab 3
                     D    Em   G
                       Nahita.....                     
e|--------------0-
b|-3-4-4-3-2-2-3--
g|-4-6-6-4-2-2----
D|----------------
A|-0---0---0-0----
E|----------------

 


			

Fitia Nindramina (Kiaka)

Hiran'i Kiaka rehetra: Kiaka
C/G:  3x2010
Em/G#:4xx000 Em*: 022010
G/B:  x20030 (x20003 @ fiverenana)

Fampidirana (2x)
Am C/G F
F-Em* Dm C G/B G-Em/G#

Tonony 1
   Am          C/G           F
Fotoana vitsy monja ihany anie 
      Em        Dm       C        G/B G-Em/G#
No noferanao ho ahy mba ho anjarako 
  Am               C/G        F
Ilay fitia tao am-ponao hatrizay
       Em        Dm       C        G/B G
Tsy navelanao ho ahy mba ho fananako 

Tetezana
      F               Em
Hasambarana fohy no niainako 
      F            Em
Tsy mba nahitako izay nahasoa
       F              Em
Fa ny faniriako ny ho anilanao
    Dm             G    Tab 1
K'anefa tsy mba nirinao

     Fiverenana
        C                 G/B    
     Fitia nindramina avy any aminao
      Am          G             F
     No niainako hatrizay hatrizao
           Em        Dm       G            
     Nefa toa navelanao toa izay fanaonao

        C                 G/B    
     Fitia nindramina avy any aminao
       Am         G                 F
     Fiainana vaovao_lava_izao_ny_anao
           Em           Dm           G            
     Nefa izany ve no atao hoe hasambarana

Tetezana (4x): A  F
Tonony 2
      Am        C/G        F
Tsy tsapanao tokoa mantsy fa 
    Em     Dm      C        G/B G-Em/G#
Ny fitiavako tsy niala taminao 
  Am       C/G           F
'Lay foko tia tsy nety niova
     Em      Dm   C            G/B G
Toa nanjary kivy noho ny nataona___o

Tetezana
      F               Em
Hasambarana fohy no niainako 
      F            Em
Tsy mba nahitako izay nahasoa
       F              Em
Fa ny faniriako ny ho anilanao
    Dm             G    Tab 1
K'anefa tsy mba nirinao

     Fiverenana
        C                 G/B    
     Fitia nindramina avy any aminao
      Am          G             F
     No niainako hatrizay hatrizao
           Em        Dm       G            
     Nefa toa navelanao toa izay fanaonao

        C                 G/B    
     Fitia nindramina avy any aminao
       Am         G                 F
     Fiainana vaovao_lava_izao_ny_anao
           Em           Dm           G            
     Nefa izany ve no atao hoe hasambarana

     Solo (manaraka ny naoty fiverenana)

     A

Tab 1
   F     G
e|-------------
b|---1-----3---
g|----2-----4--
D|-3---3-5---5-
A|-------------
E|-------------