Tsy Sahy (Imagine)

Intro
C   Dm7  | C/E F
Dm7 G  C

Tonony
C             G/B
 Raha ny fanirian'anao
F/A               G          
 Hatrin'ny ela no efa tao
Am          Em7         Dm7 G
 Ao am-poko ao hatram'izao

C             G/B
 Tsapoko ao anatiko ao
F/A         G   
 Ny fitiavako anao
Am           Em7      F
 Toa hanova ny fiainako

     Fiverenana (2x)
     Dbdim-Dm7                    G
              Hatrin'ny ela no namatotr'ahy
     C/E                   F
      Saingy izaho no tsy sahy
             Dm7         G           C       
     Nihaotr'aho niteny hoe tiako ianao

Tonony 2
C               G/B  
 Nefa raha mba fantatrao
F/A             G  
 'Zaho anie ka tia anao
Am                  Em7       Dm7 G  
 Sambatr'aho raha tsy ho lavina___o

C             G/B
 Ty ny foko omekao
F/A         G 
 Izay sitrakao lazao
Am         Em7         F
 Manjaka aty fa vonona_aho

 

Tsy Sahy (Kiaka)

Hiran'i Kiaka rehetra: Kiaka
A4: x02230
D2: xx0230
S:  slide (migorisa)
^:  bend (atosika miakatra)
h:  hammer (kapohina)
p:  pulloff (esorina)

Fampidirana
D  G  A

Tonony 1
D                G 
 Asa raha fantatrao
              D
Ny ao am-poko ao
        D2         G
Fitiavana naniry anao

Tonony 2
D              G 
 Tsy sahiko lazaina
               D
Matahotra aho mantsy
 D2          G
Sao dia lavinao

     Tetezana
               Em 
     Tsy tsapanao
                         G
     Izaho efa raikim-pitia
              Em 
     Mijery anao
                   A
     Manjary mankahia
                   A4-A
     Tsy tantiko ery___

     Fiverenana
      D          C        G 
     Rahoviana_ihany mantsy 
           A
     Vao tsapanao
      D     C         G 
     Ny fitiavako mangina
        A
     Mikotrika ao

      D        C           G
     Ianao no nofiko hatrizay
          A 
     Hanasitrana 
       D      C        G
     'Ty foko efa lasanao
          Bm  
     Babonao

Tab 1
e|-----------------
b|-----------------
g|-----------------
D|-------2--0------
A|-2-4-5------4-2-0
E|-----------------

Tonony 3
    D             G
Tsy ampy angamba mantsy
              D
Ny hery ananako
     D2              G
Amborahako fitia aminao

Tonony 4
    D         G
Ny masonao mijery
              D
Toa mibanjina_ahy
   D2          G
Manainga ny fanahy

     Tetezana
              Em
     Ny endrikao
                     G 
     Izay mitsiky malefaka
                 Em
     Toa miantso ahy
                   A 
     Hinoako te-hiresaka
             A4 A
     Fa tsy sa_hy

     Fiverenana  
      D          C        G  
     Rahoviana_ihany mantsy  
           A  
     Vao tsapanao  
      D     C         G  
     Ny fitiavako mangina  
        A  
     Mikotrika ao 

      D        C           G  
     Ianao no nofiko hatrizay 
          A 
     Hanasitrana 
       D      C        G
     'Ty foko efa lasanao  
          Bm  
     Babonao

Solo
                 G  
e|----------------
b|----------------
g|----------------
D|----------------
A|-2-4-5-7--7-9-10
E|----------------
      D                   G
      ^  
e|--------------------------
b|-12s14--14-----------------
g|----------11-11-12-12-12---
D|------------------------12
A|--------------------------
E|--------------------------

                           D 
e|--------------------------
b|--------------------------
g|--------------------------
D|----12-10-9---------------
A|-10---------12-10-----12-9
E|------------------10------

                                       G                         
e|-------------------------------12-------------------
b|----------------------12-15-15----11s12-11s12s11--12
g|----------------11-14---------------------------12--
D|----------12-14-------------------------------------
A|-10s12-14-------------------------------------------
E|----------------------------------------------------
          Em
e|---12---15-12--12-15-12-----------------------------
b|-12--12------15--------15p12-15p12--12-15-12--------
g|----------------------------------14--------14p12---
D|----------------------------------------------------
A|----------------------------------------------------
E|----------------------------------------------------
                            G
e|----------------------------------------------------
b|----------------------------------------------------
g|-14p12--12-14p12------------------------------------
D|------14--------14-12-12h14-12----------------------
A|----------------------------------------------------
E|----------------------------------------------------
                    Em
                 ^
e|---12-15-16-17-19-12--14-15-12-------------------12-
b|-12-----------------------------15-14---14--15------
g|--------------------------------------14--14---14---
D|----------------------------------------------------
A|----------------------------------------------------
E|----------------------------------------------------
     A
e|---14--15---17-19-21--------------------------------
b|----------------------------------------------------
g|-14--14--14-----------------------------------------
D|----------------------------------------------------
A|----------------------------------------------------
E|----------------------------------------------------

     Fiverenana

Famaranana/Solo (2x)
      D    C        G         A
e|------14-12-----12-----12---14-12--
b|-----------15-12--15---------------
g|-12s14--14--14-------14---14-------
D|----------------------------------- 
A|-----------------------------------
E|-----------------------------------

   D    C         G          A        D
e|---14-15-14-12--15-14------12-14-14-12
b|--------------15-----15---------------
g|-14---------------------14------------
D|--------------------------------------
A|--------------------------------------
E|--------------------------------------

Tsy Sahy (Mage 4)

Hiran'i Mage 4 rehetra: Mage 4
A2:   x02200 A/C#:x4xx55 
D2:   xx0230 D4:  xx0233 D/F#: 2xx232 
G6/B: x20030 G/B: x20033
h:    hammer  (kapohiny)
p:    pulloff (esorina)
s:    slide   (migorisa ilay naoty)

Fampidirana
   D2            D2/F#
e|-2-----0-------2-----0----
b|-----3---3---------3---3--
g|---2-------2-----2-------2
D|-0-----------0------------
A|--------------------------
E|---------------2----------
   D2/G        D2         
e|-------0-------------0-------
b|-----3---3---3-----3---3-----
g|---2-------2-----2-----------
D|---------------0-------------
A|-------------------------2s4-
E|-3---------------------------
   Bm            A2
e|-------------2------------
b|-------2-2h3---------0----
g------3-------------2---2--
D|---3-------------2-------2
A|-2-------------0----------
E|--------------------------
   G    
e|---------------------------------
b|-0-----0h1p0--0h1p0--------------
g|-----0--------------0h2p0--------
D|---0---0h2p0--0h2p0-------0h2p0--
A|--------------------------------2
E|-3-------------------------------
   D2        A2
e|-------0---0-----
b|-----3---3--0----
g|---2---------2---
D|-0------------2--
A|---------------0-
E|----------------0

Tonony 1
   D2                 D4 D   
Miverina indray ny fahi_ny 
       D2                    D4 
'Lay toetranao nahafinaritra ahy 
      D      A2 A
Mampitory fitia 
    G/B            A/C#
Niezaka foana teny aho 
                D   A
F’ianao no tsy nety

Tab 2
   A
e|------------------
b|------------------
g|-2s4s2--2s4s2--2s4
D|-2s4s2--2s4s2--2s4
A|-0----------------
E|------------------

D2            D4 D
Ankehitriny ane_fa 
  D2                  D4         
Tsapako ianao fa efa tia ahy
     D       A2  A
Fa tsy nampiseho 
G/B                  A/C#       
Ilay fo tsy natoy taloha 
                 D  A
Natahotra ny ho tia
     Fiverenana
                     D         F#m
     Ianao no tsy niteny nefa tia 
                    Em        A
     Fa vahotra ny vavanao ninia
                      D         A 
     Na sarotra aza niainanao irery
                G 
     Naleonao niery

                     D         F#m
     Ianao no tsy nijery nefa tia 
                    Em            A
     Tsy sahinao naseho izany satria 
                     D           A
     'Reo potika sy rembin’ny tadio 
                   G
     'Lay fonao nadio

Tetezana/Solo
      D2          D2/F#       D2/G
e|-------------------------------------
b|-------------------------------------
g|-2s11--12-11-12s14----12-11-12-11-9-7
D|-------------------------------------
A|-------------------------------------
E|-------------------------------------
       A                D2
e|---------------------------------------
b|------------------7h8p7----------15----
g|------------6-7-9-------9-7-7s14----14-
D|-7h9p7--7-9----------------------------
A|---------------------------------------
E|
         D2/F#     G                        D  A
e|------------------------7---------------------
b|--------12-11---------7---7-9p7---7-----------
g|------------------7-9-----------9-------------
D|--------------7s9-------------------7s9s7-----
A|----------------------------------------------
E|-10s12----------------------------------------

Tonony 2
  D2                D4 D
Atopatopan-drivotra e_ty 
      D2                    D4  
Ny hakanto sy_hanitry ny fitia raha
 D        A2 A
Tazako ianao 
  G/B                A/C#
Tsikinao niantsy fa toa 
               D    A Tab 1
Tsy sahiko sedraina 

  D2                  D4 D
Adinoko avokoa ny tonto_lo 
     D2                     D4  
Ny alahelo tsy hanaloka intsony 
 D           A2  A
Dify tsy ho hita 
  G/B                   A/C#
Tsisy ho tsaroina ireo raha 
           D  A
Hanoroka anao

     Fiverenana  
                     D         F#m  
     Ianao no tsy niteny nefa tia 
                      Em      A  
     Fa vahotra ny vavanao ninia  
                      D         A  
     Na sarotra aza niainanao irery  
                G
     Naleonao niery 

                     D         F#m     
     Ianao no tsy nijery nefa tia  
                    Em            A
     Tsy sahinao naseho izany satria  
                     D           A
     'Reo potika sy rembin’ny tadio  
                   G
     'Lay fonao nadio