Tsy Sahy (Kiaka)

Hiran'i Kiaka rehetra: Kiaka
A4: x02230
D2: xx0230
S:  slide (migorisa)
^:  bend (atosika miakatra)
h:  hammer (kapohina)
p:  pulloff (esorina)

Fampidirana
D  G  A

Tonony 1
D                G 
 Asa raha fantatrao
              D
Ny ao am-poko ao
        D2         G
Fitiavana naniry anao

Tonony 2
D              G 
 Tsy sahiko lazaina
               D
Matahotra aho mantsy
 D2          G
Sao dia lavinao

     Tetezana
               Em 
     Tsy tsapanao
                         G
     Izaho efa raikim-pitia
              Em 
     Mijery anao
                   A
     Manjary mankahia
                   A4-A
     Tsy tantiko ery___

     Fiverenana
      D          C        G 
     Rahoviana_ihany mantsy 
           A
     Vao tsapanao
      D     C         G 
     Ny fitiavako mangina
        A
     Mikotrika ao

      D        C           G
     Ianao no nofiko hatrizay
          A 
     Hanasitrana 
       D      C        G
     'Ty foko efa lasanao
          Bm  
     Babonao

Tab 1
e|-----------------
b|-----------------
g|-----------------
D|-------2--0------
A|-2-4-5------4-2-0
E|-----------------

Tonony 3
    D             G
Tsy ampy angamba mantsy
              D
Ny hery ananako
     D2              G
Amborahako fitia aminao

Tonony 4
    D         G
Ny masonao mijery
              D
Toa mibanjina_ahy
   D2          G
Manainga ny fanahy

     Tetezana
              Em
     Ny endrikao
                     G 
     Izay mitsiky malefaka
                 Em
     Toa miantso ahy
                   A 
     Hinoako te-hiresaka
             A4 A
     Fa tsy sa_hy

     Fiverenana  
      D          C        G  
     Rahoviana_ihany mantsy  
           A  
     Vao tsapanao  
      D     C         G  
     Ny fitiavako mangina  
        A  
     Mikotrika ao 

      D        C           G  
     Ianao no nofiko hatrizay 
          A 
     Hanasitrana 
       D      C        G
     'Ty foko efa lasanao  
          Bm  
     Babonao

Solo
                 G  
e|----------------
b|----------------
g|----------------
D|----------------
A|-2-4-5-7--7-9-10
E|----------------
      D                   G
      ^  
e|--------------------------
b|-12s14--14-----------------
g|----------11-11-12-12-12---
D|------------------------12
A|--------------------------
E|--------------------------

                           D 
e|--------------------------
b|--------------------------
g|--------------------------
D|----12-10-9---------------
A|-10---------12-10-----12-9
E|------------------10------

                                       G                         
e|-------------------------------12-------------------
b|----------------------12-15-15----11s12-11s12s11--12
g|----------------11-14---------------------------12--
D|----------12-14-------------------------------------
A|-10s12-14-------------------------------------------
E|----------------------------------------------------
          Em
e|---12---15-12--12-15-12-----------------------------
b|-12--12------15--------15p12-15p12--12-15-12--------
g|----------------------------------14--------14p12---
D|----------------------------------------------------
A|----------------------------------------------------
E|----------------------------------------------------
                            G
e|----------------------------------------------------
b|----------------------------------------------------
g|-14p12--12-14p12------------------------------------
D|------14--------14-12-12h14-12----------------------
A|----------------------------------------------------
E|----------------------------------------------------
                    Em
                 ^
e|---12-15-16-17-19-12--14-15-12-------------------12-
b|-12-----------------------------15-14---14--15------
g|--------------------------------------14--14---14---
D|----------------------------------------------------
A|----------------------------------------------------
E|----------------------------------------------------
     A
e|---14--15---17-19-21--------------------------------
b|----------------------------------------------------
g|-14--14--14-----------------------------------------
D|----------------------------------------------------
A|----------------------------------------------------
E|----------------------------------------------------

     Fiverenana

Famaranana/Solo (2x)
      D    C        G         A
e|------14-12-----12-----12---14-12--
b|-----------15-12--15---------------
g|-12s14--14--14-------14---14-------
D|----------------------------------- 
A|-----------------------------------
E|-----------------------------------

   D    C         G          A        D
e|---14-15-14-12--15-14------12-14-14-12
b|--------------15-----15---------------
g|-14---------------------14------------
D|--------------------------------------
A|--------------------------------------
E|--------------------------------------
Advertisements

Leave a Reply

Fill in your details below or click an icon to log in:

WordPress.com Logo

You are commenting using your WordPress.com account. Log Out / Change )

Twitter picture

You are commenting using your Twitter account. Log Out / Change )

Facebook photo

You are commenting using your Facebook account. Log Out / Change )

Google+ photo

You are commenting using your Google+ account. Log Out / Change )

Connecting to %s