Tsy Sahy (Mage 4)

Hiran'i Mage 4 rehetra: Mage 4
A2:   x02200 A/C#:x4xx55 
D2:   xx0230 D4:  xx0233 D/F#: 2xx232 
G6/B: x20030 G/B: x20033
h:    hammer  (kapohiny)
p:    pulloff (esorina)
s:    slide   (migorisa ilay naoty)

Fampidirana
   D2            D2/F#
e|-2-----0-------2-----0----
b|-----3---3---------3---3--
g|---2-------2-----2-------2
D|-0-----------0------------
A|--------------------------
E|---------------2----------
   D2/G        D2         
e|-------0-------------0-------
b|-----3---3---3-----3---3-----
g|---2-------2-----2-----------
D|---------------0-------------
A|-------------------------2s4-
E|-3---------------------------
   Bm            A2
e|-------------2------------
b|-------2-2h3---------0----
g------3-------------2---2--
D|---3-------------2-------2
A|-2-------------0----------
E|--------------------------
   G    
e|---------------------------------
b|-0-----0h1p0--0h1p0--------------
g|-----0--------------0h2p0--------
D|---0---0h2p0--0h2p0-------0h2p0--
A|--------------------------------2
E|-3-------------------------------
   D2        A2
e|-------0---0-----
b|-----3---3--0----
g|---2---------2---
D|-0------------2--
A|---------------0-
E|----------------0

Tonony 1
   D2                 D4 D   
Miverina indray ny fahi_ny 
       D2                    D4 
'Lay toetranao nahafinaritra ahy 
      D      A2 A
Mampitory fitia 
    G/B            A/C#
Niezaka foana teny aho 
                D   A
F’ianao no tsy nety

Tab 2
   A
e|------------------
b|------------------
g|-2s4s2--2s4s2--2s4
D|-2s4s2--2s4s2--2s4
A|-0----------------
E|------------------

Tonony 2
D2            D4 D
Ankehitriny ane_fa 
  D2                  D4 D        
Tsapako ianao fa efa tia ahy
             A2  A
Fa tsy nampiseho 
G/B                  A/C#       
Ilay fo tsy natoy taloha 
                 D  A
Natahotra ny ho tia
     Fiverenana
                     D         F#m
     Ianao no tsy niteny nefa tia 
                    Em        A
     Fa vahotra ny vavanao ninia
                      D         A 
     Na sarotra aza niainanao irery
                G 
     Naleonao niery

                     D         F#m
     Ianao no tsy nijery nefa tia 
                    Em            A
     Tsy sahinao naseho izany satria 
                     D           A
     'Reo potika sy rembin’ny tadio 
                   G
     'Lay fonao nadio

Tetezana/Solo
      D2          D2/F#       D2/G
e|-------------------------------------
b|-------------------------------------
g|-2s11--12-11-12s14----12-11-12-11-9-7
D|-------------------------------------
A|-------------------------------------
E|-------------------------------------
       A                D2
e|---------------------------------------
b|------------------7h8p7----------15----
g|------------6-7-9-------9-7-7s14----14-
D|-7h9p7--7-9----------------------------
A|---------------------------------------
E|
         D2/F#     G                        D  A
e|------------------------7---------------------
b|--------12-11---------7---7-9p7---7-----------
g|------------------7-9-----------9-------------
D|--------------7s9-------------------7s9s7-----
A|----------------------------------------------
E|-10s12----------------------------------------

Tonony 3
  D2                D4 D
Atopatopan-drivotra e_ty 
      D2                    D4  D
Ny hakanto sy_hanitry ny fitia raha
          A2 A
Tazako ianao 
  G/B                A/C#
Tsikinao niantsy fa toa 
               D    A Tab 1
Tsy sahiko sedraina 

Tonony 4
  D2                  D4 D
Adinoko avokoa ny tonto_lo 
     D2                     D4  D
Ny alahelo tsy hanaloka intso__ny 
             A2  A
Dify tsy ho hita 
  G/B                   A/C#
Tsisy ho tsaroina ireo raha 
           D  A
Hanoroka anao

     Fiverenana  
                     D         F#m  
     Ianao no tsy niteny nefa tia 
                      Em      A  
     Fa vahotra ny vavanao ninia  
                      D         A  
     Na sarotra aza niainanao irery  
                G
     Naleonao niery 

                     D         F#m     
     Ianao no tsy nijery nefa tia  
                    Em            A
     Tsy sahinao naseho izany satria  
                     D           A
     'Reo potika sy rembin’ny tadio  
                   G
     'Lay fonao nadio
Advertisements

Leave a Reply

Fill in your details below or click an icon to log in:

WordPress.com Logo

You are commenting using your WordPress.com account. Log Out / Change )

Twitter picture

You are commenting using your Twitter account. Log Out / Change )

Facebook photo

You are commenting using your Facebook account. Log Out / Change )

Google+ photo

You are commenting using your Google+ account. Log Out / Change )

Connecting to %s