Sabotsy Alina (Kiaka)

Hiran'i Kiaka rehetra: Kiaka
Bm:x24432
^: bend
s: slide (migorisa)
h: hammer (kapohina)
p: pulloff (esorina aingana)

Fampidirana
D  G  D  A (2x)
D  A  D  A ...A (2x)

Tonony 1
G        Bm     A            Em 
 Tsisy atao, ny andro harivariva 
G        Bm    A
 Tanora maro ety 
G        Bm      A        Em 
 Mifampotoana, hiara-mikorana 
G     Bm     A    
 Eny rehetra eny 

Tonony 2
Bm      G         D      A
 Hanala azy, week-end ny andro 
Em            Bm       A
 Kirimba sy boite de nuit 
Bm       G         D           A
 Hisotrosotro, ny sasany tena mamo 
Em     Bm        A  A4-A-G-A
 Faly sambatra ery 

     Fiverenana (2x)
      D    A-G   
     Revy e    
       G        D     G-A
     Miodina mirevy e  
      A            D   A-G
     Toa tsy mety vita 
          G       A
     Mihamamy hatrany 

Tonony 3
G          Bm   A               Em
 Ny revy atao, toa tsy mety ho lany 
G        Bm     A
 Fa vao maika miampy 
G    Bm       A         Em
 Beksa, sipa kely, whisky e 
G     Bm    A
 Falifaly ery 

Tonony 4
Bm          G     D            A
 Tsy hita akory, lasa ilay fotoana 
Em      Bm   A
 Tonga ny maraina 
Bm        G       D         A
 Malaina hody, hamonjy ny akany 
Em    Bm  A
 Okay    sur daholo ry leity ry leity e 
    
     Fiverenana (2x)
      D     A-G 
     Revy e 
       G        D     G-A
     Miodina mirevy e 
      A            D   A-G
     Toa tsy mety vita 
          G        A
     Mihamamy hatrany 
  
Solo
     D             G                  D            A
e|-------------------|--------------|-------------------
b|-------------------|--8p7---------|-------------------
g|-9s11-11-11s9-7----|-----9p7------|-------------------
D|---------------7h9-|--------9p7---|----7-9------------
A|-------------------|-----------10-|-7p9---7h9p7-------
E|-------------------|--------------|------------10-9---
              D           G           A                  
e|--------------------------|-----------------------
b|----------------10------8-|-7s8p7-----------------
g|-----7-9-7--9s11--11p9-7--|-------9-7-6-7-9-^9-7-9
D|--7s9---------------------|-----------------------
A|--------------------------|-----------------------
E|--------------------------|------------------------
   D     G           D         A
e|---------|---------------------------- 
b|-10-7--8-|-8-7-----10-7--8-7----------
g|-7--7--7-|-7-7-9-7-7--7--7-7-9--------
D|---------|----------------------------
A|---------|----------------------------
E|---------|----------------------------
           D     G           A
e|-----------------|--------------------- 
b|-8-7-----10-7--8-|-8-7-----------------
g|-7-7-9-7-7--7--7-|-7-7-9-7-6-7-9-^9-7-9
D|-----------------|---------------------
A|-----------------|---------------------
E|-----------------|---------------------

     Fiverenana (2x) 
      D    A-G  
     Revy e  
       G        D    G-A 
     Miodina mirevy e 
      A            D   A-G 
     Toa tsy mety vita  
          G       A 
     Mihamamy hatrany 
Advertisements

Leave a Reply

Fill in your details below or click an icon to log in:

WordPress.com Logo

You are commenting using your WordPress.com account. Log Out / Change )

Twitter picture

You are commenting using your Twitter account. Log Out / Change )

Facebook photo

You are commenting using your Facebook account. Log Out / Change )

Google+ photo

You are commenting using your Google+ account. Log Out / Change )

Connecting to %s